Jumat, 02 Desember 2011

CARA ROCK STAR MENGHABISKAN UANGNYA

47. DMX : Menghabiskan $1,000 sebagai jaminan agar tidak masuk penjara setelah menabrak gerbang keamanan airport JFK di New York dalam keadaan mabuk.

46. Chris Kirkpatrick : Ketika anggota NSync lainnya Lance Bass pergi ke angkasa luar, dia malah membeli pelek berharga $40,000 buset..

45. Jermain Dupri : Pacar Janet Jackson ini menghabiskan $12,000 hanya untuk game !!

44. Keith Moon : Drummer The Who ini menghabiskan $595.. untuk mengcustom sebuah truk susu ala pimp my ride pada tahun 1971

43. Britney Spears : Menghabiskan $3,000 untuk mengimpor gunting rambut khusus dari Jepang. He??? Pentinmg gak seeehhh.....

42. John Popper : Musisi blues yang lihat memainkan harmonika ini menghabiskan $10,000 untuk membeli meriam jaman perang saudara di amerika...

41. Bobby Brown : Mantan suami Whitney Houston ini didenda akibat lalai membayar jaminan anak sebesar $63,500. orang sibuk kali yee.. jaminan anak sendiri aja sampe lupa bayar..

40. Nas dan Kelis : Pasangan hiphop ini merayakan pernikahan mereka dengan membeli sepasang gigi palsu emas berharga $36,000. Wih pasti fotografer weddingannya pada buta semua gara2 pantulan cahaya dari gigi2 tersebut..

39. John Mayer : Menghabiskan $1,719.15 hany untuk membeli sebuah action figure Boba Fett di eBay...

38. Jay Z : menghabiskan $360,000 untuk mengcustom Mercedes Maybachnya..

37. Kurt Cobain : $40,000 untuk rehabilitasi narkoba... dan kabur pada hari pertama....uangnya buat apa?????

36. Usher : Gila ni orang beli sneakers Nike Air Force One seharga $26,000 !!!

35. Tommy Lee : Mantan suami Pamela Anderson ini membeli Franchise Starbucks seharga $4,000. tampak tidak aneh ? Nah asal tahu saja franchise tersebut dipasang di rumahnya sendiri... ini baru aneh...

34. Jay Kay : Dikenal sebagai kolektor mobil kelas wahid, vokalis Jamiroquai ini membeli Lamborghini Diablo seharga $306,000. untuk kemudian rusak berantakan pada kecelakaan saat syuting video klip "cosmic girl"

33. Lenny Kravitz : Rocker kulit hitam ini membayar $20,400 untuk menyaksikan konser Lionel Richie, secara private..

32. Mariah Carey : $662,500 dia habiskan untuk membeli piano bekas kepunyaan Marilyn Monroe... Kenangannya gede sih.. tapi kalo ketempelan hantunya Marilyn ?

31. Lemmy Kilmister : Basis metal legendaris ini membeli pedang peninggalan NAZI seharga $6,000 untuk investasi... pedang??? kenapa gak tanah atau emas aja???? aneh..

30. Justin Timberlake : Menghabiskan $1,700,000 untuk membooking toko swalayan kelas atas Harrods di London pada saat natal, untuk menghindari keramaian….

29. Paul McCartney : Karena rumahnya di Inggris dekat dengan hutan, maka dia menghabiskan $170,000 untuk pagar sepanjang 4 mil, untuk menghalangi jalan masuk babi hutan. Sir Paul yang pembela hak2 binatang melakukan itu agar binatang2 tersebut tidak ditembak oleh orang2 sekitar. Tetangga McCartney berkomentar “Harusnya dia tidak perlu repot2 memasang pagar, tinggal tembak saja, beres kan ?”

28. Sting : Aneh!!! menghabiskan $11,900 hanya untuk sebuah pohon natal !!!

27. P.Diddy : Rapper yang sering berganti nama panggung ini menghabiskan $800,000 untuk menyewa sebuah Yacht. Sekali lagi, HANYA MENYEWA.. bukan membeli…

26. Billy Idol : Menghabiskan $20,400 untuk mengganti rugi kerusakan kamar hotel di Thailand. Menurut pengakuan beliau, dia merusak kamar hotel karena bosan…..

25. Billy Joel : $2,000,000 untuk sebuah yacht yang dia gunakan untuk bolak balik Long Island – Manhattan….

24. Will Smith : Tiap bulannya menghabiskan $2,500 untuk mengontrak Cesar Millan, seorang ahli anjing untuk mendampingi keempat anjing peliharaannya..

23. Freddie Mercury : menghabiskan $1,500,000 untuk ikan koi… sayangnya sehabis Freddie Mercury wafat ikan2 itu semua mati kecuali 5 ekor karena ga ada yang ngurus…

22. Ozzy Ousborne : Menghabiskan $708,000 untuk konsultasi narkoba. Sebenarnya harga konsultasi hanya $650,000 . Tapi Ozzy menghabiskan $58,000 lagi untuk menyuruh dokter menyutikkan obat penenang ke tubuhnya akibat kecelakaan kereta api parah yang disaksikan langsung oleh Ozzy…

21. Marilyn Manson : Ngabisin $500 untuk membeli foto crime scene yang dilakukan oleh Charles Manson..

20. Paul Simon : menghabiskan $3,000,000 untuk menggelar pertunjukan opera… yang tidak laku….

19. George Harrison : Menyumbangkan jutaan dollar ke partai politik yang sesuai dengan ajaran Maharishi Yogi (yakni meditasi dapat menyelesaikan semua masalah). Dan partai tersebut hanya mendapat 0,4% suara pada pemili inggris tahun 92…

18. Patrick King Jr. : Anggota boyband natural ini menghabiskan $30,000 untuk membeli gitar kecil yang bertatahkan berlian… yang dia pakai sebagai kalung….

17. Noel Gallagher : menghabiskan $680,000 untuk merubah dapur rumahnya tampak seperti Yellow Submarine, karena kecintaannya pada Beatles. Dan kemudian $34,000 untuk merubah seluruh karpet di rumahnya menjadi warna biru muda, sesuai dengan warna kaos time Manchester City, klub idola Noel…

16. Mick Jagger : menghabiskan $15,500,000 untuk uang gono gini… tau gini ga nikah aja kali ya….

15. MC Hammer : membeli mansion seharga $12,000,000 pada tahun 1990. Dan pada tahun 96, dia bankrut dengan utang $13,7 juta..

14. Bryan Adams : Bryan Adams tinggal di Chelsea, London. Di sebelah mansionnya adal sebuah pub yang selalu berisik pada malam hari, membuatnya sulit tidur. Lalu dia membeli pub itu dengan harga $680,000 pada tahun 94. Setelah dibeli, lalu dia tutup pub itu….

13. John Lennon : Membooking seluruh kursi kelas satu di pesawat terbang dengan harga $12,980… agar anaknya Sean Lennon dapat bermain kereta2api an di pesawat….

12. Bono : Karena kelupaan topinya saat akan konser bersama Pavarotti, bono menerbangkan topinya dari London ke Roma dengan biaya $1,700. Cuma topi gitu lho!!

11. Simon Le Bon : vokalis Duran Duran ini menghabiskan $1,35 juta untuk yacht. Dan dia hampir mati gara2 kecelakaan di yacht tersebut pada tahun 1985…

10. Kanye West : Menghabiskan $350,000 untuk mendesain langit2 ruang makan di rumahnya menjadi tampak seperti langit2 Chapel Sistine yang dilukis oleh Michelangelo.

9. Nelly : Wihihi ini dia musuhnya para pencinta hewan…. Nelly menghabiskan $385,000 untuk mengcover seluruh interior mobil rolls roycenya dengan bulu mink (sejenis rubah)…

8. The KLF : Duo pop asal inggris ini menghabiskan $1,700,000. Untuk…. Dibakar….

7. Ron Wood : Membuat replica Sandymount, bar inggris legendaries di rumahnya.. dengan biaya $66,000

6. Rod Stewart : menghabiskan $100,000 untuk membuat lapangan sepakbola kelas dunia di rumahnya, dilengkapi dengan ruang ganti alat klub2 ternama eropa… Ayo siapa yang mau masuk SSB Rod Stewart ??

5. Elton John : Menghabiskan $ 419,000 hanya untuk mendekor rumahnya dengan bunga….

4. Mick Fleetwood : $8,000,000, hanya untuk kokain……

3. The Beatles : mendirikan perusahaan recording Apple dengan biaya $510,000 , yang memiliki butik dan toko elektronik… yang hanya laku merilis album the beatles saja…

2. Michael Jackson : Gelo…. Menghabiskan $ 1,000,000 untuk mendatangkan Marlon Brando ke pesta ulang tahunnya yang ke 30…

1. Elvis Presley : Menghabiskan uang sebanyak $3,387.28 hanya untuk sandwich !! Pada tahun 76 ketika show di Graceland, dia tiba2 ingin makan sandwich di sebuah restoran di denver. Lalu dia pergi dengan jet pribadi ke denver. 2 jam kemudia dia sampai di denver… Cuma untuk makan sandwich… yang parahnya ga habis dia makan sendiri….

Selasa, 08 November 2011

LAGU-LAGU COVER TERBAIK SEPANJANG MASSA

1.Abracadabra ----------------- Steve Miller Band (1982) Sugar Ray (1999)
2.Achilles Last Stand -----------Led Zeppelin (1976) Dream Theater (1995)
3.After Midnight -------------------------J. J. Cale (1970) Eric Clapton (1970)
4.All Along The Watchtower --------------------Bob Dylan (1967) Jimi Hendrix (1968)
5.America -----------------------------------Simon and Garfunkel (1968) Yes (1972)
6.Astronomy -------------------------------Blue Oyster Cult (1974) Metallica (1998)
7.Back in N.Y.C. ---------------------------Genesis (1974) Jeff Buckley (1998)
8.Back In The High Life Again --------------Steve Winwood (1987) Warren Zevon (2000)
9.Battle of Evermore -------------------------Led Zeppelin (1971) Heart (2003)
10.Big Yellow Taxi ----------------------Joni Mitchell (1970) Counting Crows (2002)
11.Billie Jean --------------------------Michael Jackson (1982) Chris Cornell (2007)
12.Black Magic Woman -------------------------Fleetwood Mac (1968) Santana (1970)
13.Break on Through (to the Other Side)------Doors (1967) Stone Temple Pilots (2000)
14.Cat Scratch Fever ----------------------------Ted Nugent (1977) Pantera (2003)
15.Come Dancing -----------------------------------Kinks (1983) Matchbox 20 (2007)
16.Come On (let the good times roll)----------Earl King (1960) Jimi Hendrix (1968)
17.Come Together ---------------------------------Beatles (1969) Aerosmith (1978)
18.Crossroads ------------------------------Robert Johnson (1936) Cream (1968)
19.Cruise Control -----------------------Dixie Dregs (1977) Dream Theater (1995)
20.Cum On Feel The Noize ----------------------Slade (1973) Quiet Riot (1983)
21.Dancing In The Moonlight --------------Thin Lizzy (1977) Smashing Pumpkins (1993)
22.Dancing In The Street --------------Martha & the Vandellas (1964) Van Halen (1982)
23.Fire -------------------------Jimi Hendrix (1967) Red Hot Chili Peppers (1989)
24.Green Manalishi ----------------------Fleetwood Mac (1972) Judas Priest (1979)
25.Havana Affair -----------------------Ramones (1976) Red Hot Chili Peppers (2003)
26.Heart Shaped Box ------------------------Nirvana (1993) Evanescence (2003)
27.Helter Skelter --------------------Beatles (1968) Aerosmith (1991)
28.Hush --------------------Billy Joe Royal (1967) Deep Purple (1968)
29.I Wanna Be Sedated -----------------Ramones (1978) The Offspring (2003)
30.In the Flesh? ---------------------Pink Floyd (1979) Dream Theater (1995)
31.Knockin' On Heavens Door --------------Bob Dylan (1973) Guns N' Roses (1991)
32.Live And Let Die ------------Paul McCartney & Wings (1971) Guns N' Roses (1991)
33.Long Tall Sally -----------------Little Richard (1956) Beatles (1964)
34.Look At Little Sister --------The Midnighters (1959) Stevie Ray Vaughan (1985)
35.Maggie's Farm --------------------Bob Dylan (1965) Rage Against the Machine (2000)
36.Paranoid -------------------------Black Sabbath (1970) Megadeth (1994)
37.Revolution -----------------------Beatles (1968) Stone Temple Pilots (2001)
38.Sabbra Cadabra --------------------------Black Sabbath (1974) Metallica (1998)
39.School Day -------------------------------Chuck Berry (1957) AC/DC (1975)
40.Signs Five Man --------------------Electical Band (1970) Tesla (1990)
41.Smokin' In The Boys Room ---------Brownsville Station (1974) Motley Crue (1985)
42.So You Want To Be A Rock 'n' Roll Star ---------Byrds (1967) Tom Petty (1986)
43.Stand By Me ---------------------------Ben E King (1961) John Lennon (1975)
44.Sweet Dreams ------------------------------Eurythmics (1983) Marilyn Manson (1995)
45.The Man Who Sold The World --------------------David Bowie (1971) Nirvana (1993)
46.Time Is On My Side ---------------------Irma Thomas (1964) Rolling Stones (1964)
47.Tom Sawyer -----------------------------Rush (1981) Deadsy (2002)
48.Train Kept A Rollin' -----------------Tiny Bradshaw (1951) Yardbirds (1965)
49.Tuesday's Gone ------------------------Lynyrd Skynyrd (1973) Metallica (1998)
50.Turn The Page ---------------------Bob Seger (1976) Metallica (1998)
51.War Pigs -----------------------Black Sabbath (1976) Faith No More (1989)
52.Whiskey In The Jar -----------------The Dubliners (1967) Metallica (1998)
53.You Can't Always Get What You Want ------Rolling Stones (1969) Rusted Root (1998)
54.You Really Got Me --------------------Kinks (1964) Van Halen (1978)

Jumat, 04 November 2011

MUSIC LIST - LAGU METAL TERBAIK SEPANJANG MASSA

beberapa nama besar masuk dalam list ini,mereka-mereka inilah yang membangun fondasi musik metal yang kita kenal selama ini,mereka diantaranya : black sabbath, iron maiden, metallica, judas priest, megadeth, dll
(jadi kalo band favorit lo gak masuk jgn kecewa, karena yang masuk dalam list ini sudah termasuk legend)

1. Hallowed Be Thy Name - Iron Maiden
2. War Pigs - Black Sabbath
3. Master of Puppets - Metallica
4. Paranoid - Black Sabbath
5. Angel of Death - Slayer
6. Ace of Spades - Motorhead
7. Black Sabbath - Black Sabbath
8. Victim of Changes - Judas Priest
9. The Number of the Beast - Iron Maiden
10. Iron Man - Black Sabbath
11. Raining Blood - Slayer
12. Stargazer - Rainbow
13. Beyond the Realms of Death - Judas Priest
14. One - Metallica
15. Holy Wars... The Punishment Due - Megadeth
16. The Trooper - Iron Maiden
17. Crazy Train - Ozzy Osbourne
18. Heaven and Hell - Black Sabbath
19. Run to the Hills - Iron Maiden
20. Painkiller - Judas Priest
21. Seek and Destroy - Metallica
22. Sabbath, Bloody Sabbath - Black Sabbath
23. Hellion/Electric Eye - Judas Priest
24. N.I.B. - Black Sabbath
25. Creeping Death - Metallica
26. Fade to Black - Metallica
27. Peace Sells - Megadeth
28. Cemetery Gates - Pantera
29. Witching Hour - Venom
30. Holy Diver - Dio
31. Phantom of the Opera - Iron Maiden
32. The Oath - Mercyful Fate
33. Rime of the Ancient Mariner - Iron Maiden
34. Symptom of the Universe - Black Sabbath
35. You've got Another Thing Coming - Judas Priest
36. Aces High - Iron Maiden
37. Pull The Plug - Death
38. Am I Evil? - Diamond Head
39. Enter Sandman - Metallica
40. Children Of The Grave - Black Sabbath
41. For Whom the Bell Tolls - Metallica
42. Cowboys from Hell - Pantera
43. Black Metal - Venom
44. Breaking the Law - Judas Priest
45. Seasons in the Abyss - Slayer
46. Symphony of Destruction - Megadeth
47. Halloween - Helloween
48. Fast As A Shark - Accept
49. Caught in a Mosh - Anthrax
50. Freezing Moon - Mayhem
51. Mr. Crowley - Ozzy Osbourne
52. Queen of the Reich - Queensryche
53. Walk - Pantera
54. Hangar 18 - Megadeth
55. 2 Minutes to Midnight - Iron Maiden
56. War Ensemble - Slayer
57. Metropolis Part I - Dream Theater
58. Into the Void - Black Sabbath
59. Balls To The Wall - Accept
60. Rainbow in the Dark - Dio
61. The Four Horsemen - Metallica
62. The Philosopher - Death
63. Fear Of The Dark - Iron Maiden
64. Pull Me Under - Dream Theater
65. I am the Black Wizards - Emperor
66. Bonded by Blood - Exodus
67. Hammer Smashed Face - Cannibal Corpse
68. Battle Hymn - Manowar
69. Over The Mountain - Ozzy Osbourne
70. Powerslave - Iron Maiden
71. Keeper of the Seven Keys - Helloween
72. A Fine Day to Die - Bathory
73. Heartwork - Carcass
74. The Last In Line - Dio
75. South Of Heaven - Slayer
76. Transilvanian Hunger - Darkthrone
77. Sweet Leaf - Black Sabbath
78. Eyes of a Stranger - Queensryche
79. Killers - Iron Maiden
80. Screaming For Vengeance - Judas Priest
81. Guardian - Fates Warning
82. The Exorcist - Possessed
83. Kill The King - Rainbow
84. Crystal Mountain - Death
85. Wasted Years - Iron Maiden
86. Elimination - Overkill
87. Blackwater Park - Opeth
88. Blinded By Fear - At the Gates
89. Divine Wings of Tragedy - Symphony X
90. Neon Knights - Black Sabbath
91. Evil - Mercyful Fate
92. Tornado of Souls- Megadeth
93. Over the Wall - Testament
94. Solitude - Candlemass
95. Nightfall - Blind Guardian
96. Jesu Død - Burzum
97. Exciter - Judas Priest
98. Chapel of Ghouls - Morbid Angel
99. Battery - Metallica
100. Fairies Wear Boots - Black Sabbath

TABLATURE JAMRUD - PELANGI DI MATAMU


A A
e ||----------------------------|-----------------------------|
B ||------------3---------------|------------3----------------|
G ||---------2--2---------------|---------2--2----------------|
D ||------2---------------------|------2----------------------|
A ||---0------------------------|---0-------------------------|
E ||------------------------0---|-----------------------------|
1 . 2 . 3 . 4 . 1 . 2 . 3 . 4 .


A Dm
e |---------------0------------|------------0--1--0----------|
B |------------2---------------|---------3----------3--------|
G |---------2------------------|------2----------------------|
D |------2---------------------|---0-------------------------|
A |---0------------------------|-----------------------------|
E |----------------------------|-----------------------------|
1 . 2 . 3 . 4 . 1 . 2 . 3 . 4 .

A E
e |---------------0------------|-----------------------------|
B |------------2---------------|------------0-----------0----|
G |---------2------------------|------1--1-----------1-------|
D |------2---------------------|---2--------------2----------|
A |---0------------------------|-----------------------------|
E |----------------------------|---------------2-------------|
1 . 2 . 3 . 4 . 1 . 2 . 3 . 4 .

A7 Dm
e |----------------------------|------------0--1p0-----------|
B |------------2---------------|---------3--------3----------|
G |---------0------------------|------2----------------------|
D |------2---------------------|---0-------------------------|
A |---0------------------------|-----------------------------|
E |----------------------------|-----------------------------|
1 . 2 . 3 . 4 . 1 . 2 . 3 . 4 .

A E
e |----------------------------|-----------------------------|
B |------------2---------------|-----------------------------|
G |---------2------------------|-----------------------------|
D |------2---------------------|---------2-------------------|
A |---0------------------------|------2----------------------|
E |----------------------------|---0-------------------------|
1 . 2 . 3 . 4 . 1 . 2 . 3 . 4 .

A
e |---------------0------------||
B |------------2----(2)--------||
G |---------2----------(2)-----||
D |------2---------------------||
A |---0------------------------||
E |----------------------------||
1 . 2 . 3 . 4 .


D Dm
e |------------0--2--0--2-0----|------------0--1--0--1p0-----|
B |---------3------------------|---------3-------------------|
G |------2---------------------|------2----------------------|
D |---0------------------------|---0-------------------------|
A |----------------------------|-----------------------------|
E |----------------------------|-----------------------------|
1 . 2 . 3 . 4 . 1 . 2 . 3 . 4 .

Asus A7
e |---------------0------------|---------------0-------------|
B |------------0---------------|------------2----------------|
G |---------2------------------|---------0-------------------|
D |------2---------------------|------2----------------------|
A |---0------------------------|---0-------------------------|
E |----------------------------|-----------------------------|
1 . 2 . 3 . 4 . 1 . 2 . 3 . 4 .

D Dm
e |------------0--2p-0---------|------------0--1p-0----------|
B |---------3-----------3------|---------3-----------3-------|
G |------2-----------------3---|------2-----------------2----|
D |---0------------------------|---0-------------------------|
A |----------------------------|-----------------------------|
E |----------------------------|-----------------------------|
1 . 2 . 3 . 4 . 1 . 2 . 3 . 4 .

B7 E
e |----------------------------|---------------0-------------|
B |----------------------------|-----------------------------|
G |----------------------------|------------1----------------|
D |------4---------------------|---------2-------------------|
A |---2------------------------|------2----------------------|
E |----------------------------|---0-------------------------|
1 . 2 . 3 . 4 . 1 . 2 . 3 . 4 .


A C#
e |---------------0------------|---------------4-------------|
B |------------2---------------|------------4----------------|
G |---------2------------------|---------6-------------------|
D |------2---------------------|------6----------------------|
A |---0------------------------|---4-------------------------|
E |----------------------------|-----------------------------|
1 . 2 . 3 . 4 . 1 . 2 . 3 . 4 .

D E
e |------------0--2--0---------|-----------------------------|
B |---------3-----------3------|------------------------0----|
G |------2-----------------2---|------------1--------1-------|
D |---0------------------------|---------2--------2----------|
A |----------------------------|------2----------------------|
E |----------------------------|---0-----------2-------------|
1 . 2 . 3 . 4 . 1 . 2 . 3 . 4 .

A C#
e |---------------0------------|---------------4-------------|
B |------------2---------------|------------6----------------|
G |---------2------------------|---------6-------------------|
D |------2---------------------|------6----------------------|
A |---0------------------------|---4-------------------------|
E |----------------------------|-----------------------------|
1 . 2 . 3 . 4 . 1 . 2 . 3 . 4 .

D Dm
e |------------0--2--0---------|---1-------------------------|
B |---------3-----------3------|---3-------------------------|
G |------2-----------------2---|---2-------------------------|
D |---0------------------------|---0-------------------------|
A |----------------------------|-----------------------------|
E |----------------------------|-----------------------------|
1 . 2 . 3 . 4 . 1 . 2 . 3 . 4 .



Melody part
F C
~~~~~~~~ ~~~~~~~~ ~~~~
e |---5-------------5-7-8------|---8-------------------------|
B |----------------------------|-----------------------------|
G |----------------------------|------------7/9-5----5h7-----|
D |----------------------------|-----------------------------|
A |----------------------------|-----------------------------|
E |----------------------------|-----------------------------|
| | |
| Rythm part | |
| | |
e |----------------------------|----------------3------------|
B |---------------1------------|------------1/3-1------------|
G |------------2---------------|---------0-------------------|
D |---------3------------------|------2----------------------|
A |------3---------------------|---3-------------------------|
E |---1------------------------|-----------------------------|
1 . 2 . 3 . 4 . 1 . 2 . 3 . 4 .

F E
~~~~~~~~~~~~ ~~~~~~~~~~~~~~
e |---5--------------5-7-8-----|---8/12---------------12b13--|
B |----------------------------|-----------------------------|
G |----------------------------|-----------------------------|
D |----------------------------|-----------------------------|
A |----------------------------|-----------------------------|
E |----------------------------|-----------------------------|
| | |
| | |
| | |
e |----------------------------|------------------0----------|
B |---------------1------------|---------------0----0--------|
G |------------2---------------|------------1-----------1----|
D |---------3------------------|---------2-------------------|
A |------3---------------------|------2----------------------|
E |---1------------------------|---0-------------------------|
1 . 2 . 3 . 4 . 1 . 2 . 3 . 4 .

E
~~~~~~~~~~~~~~
e |---12-----------------------|
B |----------------------------|
G |----------------------------|
D |----------------------------|
A |----------------------------|
E |----------------------------|
| |
| |
| |
e |------------0--0------------|
B |---------0-----0------------|
G |------1--------1------------|
D |---2------------------------|
A |----------------------------|
E |----------------------------|
1 . 2 . 3 . 4 .


SONG FLOW:
1. Intro
2. Bait
3. Interlude same like Intro
4. Bait
5. Bridge
6. Chorus
7. Solo
8. Bait
9. Bridge
10. Chorus
11. Chorus
12. Chorus

TABLATURE SLANK - KU TAK BISA

SLANK - Ku tak bisa
gitaris abdee negara

Yang maen lead guitar pada lagu ku tak bisa adalah abdee,
keren banget loh, coba aja, nih ...

**************************************************************
ini dipake pas reff (melody yang ngiringin reff)

E-------------------------------------------------------------|
B-------5-5h6---------5-5h6---5^-----3~~~~--------------------|
G-----7-------------5-----------------------------------------|
D-5h7-----------5h7-------------------------------------------|
A-------------------------------------------------------------|
E-------------------------------------------------------------|


**************************************************************
ini melody tengahnya ... (yang keren abiz itu ...)

E-------------------------------------------------------------|
B-------------------------------------------------------------|
G----------12/14-14---14\12---9^-9----------------------------|
D-------10----------------------------------------------------|
A-10h12-------------------------------------------------------|
E-------------------------------------------------------------|


E-------------------------------------------------------------|
B---------------------------------------------------10-11-11--|
G----------12/14-14---14\12--------------------9-12-----------|
D-------10--------------------9^-9--------9-12----------------|
A-10h12-----------------------------10-12---------------------|
E-------------------------------------------------------------|


E-------------------------------------------------------------|
B-10-8-10h11---11p10-8-------------------------10-11-12-13----|
G--------------------------------------9-10-12----------------|
D------------------------------9-10-12------------------------|
A------------------------11-12--------------------------------|
E-------------------------------------------------------------|


E-10-11-12-13/----17---13/---17---13/--17---13/---17----------|
B-------------------------------------------------------------|
G-------------------------------------------------------------|
D-------------------------------------------------------------|
A-------------------------------------------------------------|
E-------------------------------------------------------------|

Kau dan aku tercipta, tak boleh terpisah ...
E-------1----------------------1------------------------------|
B-------1----------------------1------------------------------|
G-------2----------------------1------------------------------|
D-------3----------------------3------------------------------|
A-------3----------------------3------------------------------|
E-------1----------------------1------------------------------|

Kamis, 06 Januari 2011

KOLEKSI MOBIL KLASIK ROCKSTAR

meski kerjaan nya musisi tapi tetap aja,yang di urus bukan musik melulu,ini dia musisi yang gue tau memiliki koleksi mobil klasik

Jimmy Vaughan's 1963 Buick Riviera


Bruce Springsteen’s Chevrolet Corvette


Roy Orbison's Chevrolet Corvette


Janis Joplin's 1965 Porsche


The Metallica “Shampoo” Car


Kirk Hammet's '36 Ford Coupe


Billy Gibbons's '32 Ford Coupe


elvis presley The King's Purple Chariot