Jumat, 04 November 2011

TABLATURE JAMRUD - PELANGI DI MATAMU


A A
e ||----------------------------|-----------------------------|
B ||------------3---------------|------------3----------------|
G ||---------2--2---------------|---------2--2----------------|
D ||------2---------------------|------2----------------------|
A ||---0------------------------|---0-------------------------|
E ||------------------------0---|-----------------------------|
1 . 2 . 3 . 4 . 1 . 2 . 3 . 4 .


A Dm
e |---------------0------------|------------0--1--0----------|
B |------------2---------------|---------3----------3--------|
G |---------2------------------|------2----------------------|
D |------2---------------------|---0-------------------------|
A |---0------------------------|-----------------------------|
E |----------------------------|-----------------------------|
1 . 2 . 3 . 4 . 1 . 2 . 3 . 4 .

A E
e |---------------0------------|-----------------------------|
B |------------2---------------|------------0-----------0----|
G |---------2------------------|------1--1-----------1-------|
D |------2---------------------|---2--------------2----------|
A |---0------------------------|-----------------------------|
E |----------------------------|---------------2-------------|
1 . 2 . 3 . 4 . 1 . 2 . 3 . 4 .

A7 Dm
e |----------------------------|------------0--1p0-----------|
B |------------2---------------|---------3--------3----------|
G |---------0------------------|------2----------------------|
D |------2---------------------|---0-------------------------|
A |---0------------------------|-----------------------------|
E |----------------------------|-----------------------------|
1 . 2 . 3 . 4 . 1 . 2 . 3 . 4 .

A E
e |----------------------------|-----------------------------|
B |------------2---------------|-----------------------------|
G |---------2------------------|-----------------------------|
D |------2---------------------|---------2-------------------|
A |---0------------------------|------2----------------------|
E |----------------------------|---0-------------------------|
1 . 2 . 3 . 4 . 1 . 2 . 3 . 4 .

A
e |---------------0------------||
B |------------2----(2)--------||
G |---------2----------(2)-----||
D |------2---------------------||
A |---0------------------------||
E |----------------------------||
1 . 2 . 3 . 4 .


D Dm
e |------------0--2--0--2-0----|------------0--1--0--1p0-----|
B |---------3------------------|---------3-------------------|
G |------2---------------------|------2----------------------|
D |---0------------------------|---0-------------------------|
A |----------------------------|-----------------------------|
E |----------------------------|-----------------------------|
1 . 2 . 3 . 4 . 1 . 2 . 3 . 4 .

Asus A7
e |---------------0------------|---------------0-------------|
B |------------0---------------|------------2----------------|
G |---------2------------------|---------0-------------------|
D |------2---------------------|------2----------------------|
A |---0------------------------|---0-------------------------|
E |----------------------------|-----------------------------|
1 . 2 . 3 . 4 . 1 . 2 . 3 . 4 .

D Dm
e |------------0--2p-0---------|------------0--1p-0----------|
B |---------3-----------3------|---------3-----------3-------|
G |------2-----------------3---|------2-----------------2----|
D |---0------------------------|---0-------------------------|
A |----------------------------|-----------------------------|
E |----------------------------|-----------------------------|
1 . 2 . 3 . 4 . 1 . 2 . 3 . 4 .

B7 E
e |----------------------------|---------------0-------------|
B |----------------------------|-----------------------------|
G |----------------------------|------------1----------------|
D |------4---------------------|---------2-------------------|
A |---2------------------------|------2----------------------|
E |----------------------------|---0-------------------------|
1 . 2 . 3 . 4 . 1 . 2 . 3 . 4 .


A C#
e |---------------0------------|---------------4-------------|
B |------------2---------------|------------4----------------|
G |---------2------------------|---------6-------------------|
D |------2---------------------|------6----------------------|
A |---0------------------------|---4-------------------------|
E |----------------------------|-----------------------------|
1 . 2 . 3 . 4 . 1 . 2 . 3 . 4 .

D E
e |------------0--2--0---------|-----------------------------|
B |---------3-----------3------|------------------------0----|
G |------2-----------------2---|------------1--------1-------|
D |---0------------------------|---------2--------2----------|
A |----------------------------|------2----------------------|
E |----------------------------|---0-----------2-------------|
1 . 2 . 3 . 4 . 1 . 2 . 3 . 4 .

A C#
e |---------------0------------|---------------4-------------|
B |------------2---------------|------------6----------------|
G |---------2------------------|---------6-------------------|
D |------2---------------------|------6----------------------|
A |---0------------------------|---4-------------------------|
E |----------------------------|-----------------------------|
1 . 2 . 3 . 4 . 1 . 2 . 3 . 4 .

D Dm
e |------------0--2--0---------|---1-------------------------|
B |---------3-----------3------|---3-------------------------|
G |------2-----------------2---|---2-------------------------|
D |---0------------------------|---0-------------------------|
A |----------------------------|-----------------------------|
E |----------------------------|-----------------------------|
1 . 2 . 3 . 4 . 1 . 2 . 3 . 4 .



Melody part
F C
~~~~~~~~ ~~~~~~~~ ~~~~
e |---5-------------5-7-8------|---8-------------------------|
B |----------------------------|-----------------------------|
G |----------------------------|------------7/9-5----5h7-----|
D |----------------------------|-----------------------------|
A |----------------------------|-----------------------------|
E |----------------------------|-----------------------------|
| | |
| Rythm part | |
| | |
e |----------------------------|----------------3------------|
B |---------------1------------|------------1/3-1------------|
G |------------2---------------|---------0-------------------|
D |---------3------------------|------2----------------------|
A |------3---------------------|---3-------------------------|
E |---1------------------------|-----------------------------|
1 . 2 . 3 . 4 . 1 . 2 . 3 . 4 .

F E
~~~~~~~~~~~~ ~~~~~~~~~~~~~~
e |---5--------------5-7-8-----|---8/12---------------12b13--|
B |----------------------------|-----------------------------|
G |----------------------------|-----------------------------|
D |----------------------------|-----------------------------|
A |----------------------------|-----------------------------|
E |----------------------------|-----------------------------|
| | |
| | |
| | |
e |----------------------------|------------------0----------|
B |---------------1------------|---------------0----0--------|
G |------------2---------------|------------1-----------1----|
D |---------3------------------|---------2-------------------|
A |------3---------------------|------2----------------------|
E |---1------------------------|---0-------------------------|
1 . 2 . 3 . 4 . 1 . 2 . 3 . 4 .

E
~~~~~~~~~~~~~~
e |---12-----------------------|
B |----------------------------|
G |----------------------------|
D |----------------------------|
A |----------------------------|
E |----------------------------|
| |
| |
| |
e |------------0--0------------|
B |---------0-----0------------|
G |------1--------1------------|
D |---2------------------------|
A |----------------------------|
E |----------------------------|
1 . 2 . 3 . 4 .


SONG FLOW:
1. Intro
2. Bait
3. Interlude same like Intro
4. Bait
5. Bridge
6. Chorus
7. Solo
8. Bait
9. Bridge
10. Chorus
11. Chorus
12. Chorus

Tidak ada komentar:

Poskan Komentar

TEMAN-TEMAN SILAKAN COMMENT DI SINI